Текст песни Still Loving You, Scorpions

STILL LOVING YOU
SCORPIONS

INTRO (2 times)
1|-------------------------0---0-------0---2-------2-|
2|---1-------1-------1-----1-----0-----0-----0-----0-|
3|-----2-------2-------2---2-------1---1-------2---2-|
4|-------2-------2-------2-2---------2-2---------1-1-|
5|---------0-------3-------0-----------2-----------0-|
6|-0-----------------------0-----------0-----------0-|

VERSE
1|---------0---------------0-----|
2|---1-------1-------1-------1---|
3|-----2---------------0---------|
4|-------2-----2---------2-----2-|
5|-0---------------3-------------|
6|-------------------------------|
Time, it needs time

1|---------0---------------0---------------0-----|
2|---1-------1-------1-------1-------1-------1---|
3|-----2---------------0---------------2---------|
4|-------2-----2---------2-----2---------2-----2-|
5|-0---------------3---------------0-------------|
6|-----------------------------------------------|
To win back your love again


1|---------2---------------2---------------0--------------0-----|
2|---0-------0-------0-------0-------3-------3-------3------3---|
3|-----2----------------2--------------2---------------2--------|
4|-------1-----1----------1----1---------1-----1---------1----1-|
5|-2---------------2---------------2---------------2------------|
6|--------------------------------------------------------------|
I will be there, I will be there


1|---------0---------------0-----|
2|---1-------1-------1-------1---|
3|-----2---------------0---------|
4|-------2-----2---------2-----2-|
5|-0---------------3-------------|
6|-------------------------------|
Love, only love

1|---------0---------------0---------------0-----|
2|---1-------1-------1-------1-------1-------1---|
3|-----2---------------0---------------2---------|
4|-------2-----2---------2-----2---------2-----2-|
5|-0---------------3---------------0-------------|
6|-----------------------------------------------|
Can bring back your love someday

1|---------2---------------2---------------0--------------0------0-0-0-0-|
2|---0-------0-------0-------0-------3-------3-------3------3----3-3-3-3-|
3|-----2----------------2--------------2---------------2---------2-2-2-2-|
4|-------1-----1----------1----1---------1-----1---------1----1--1-1-1-1-|
5|-2---------------2---------------2---------------2-------------2-2-2-2-|
6|---------------------------------------------------------------0-0-0-0-|
I will be there, I will be there

I ll fight, babe, I ll fight
To win back your love again
I will be there, I will be there

Love, only love
Can break down the walls someday
I will be there, I will be there

CHORUS:(Play full chords)
F Am F
If we d go again
G Dm
All the way from the start
F Am F
I would try to change
G Dm
The things that killed out love
Am Dm E
Your pride has built a wall, so strong
E7 Am
That I can t get through
F Dm
Is there really no chance
F E
To start once again
Am
I m loving you


Verse:
Try, baby, try
To trust in my love again
I will be there, I will be there
Love, our love
Just shouldn t be thrown away
I will be there, I will be there


CHORUS:
If we d go again
All the way from the start
I would try to change
The things that killed out love
Your pride has built a wall, so strong
That I can t get through
Is there really no chance
To start once again

If we d go again
All the way from the start
I would try to change
The things that killed out love

Am Dm E
Yes, I ve hurt your pride and I know
E7 Am
What you ve been through
F Dm
You should give me a chance
F E
This can t be the end
Am
I m still loving you
C
I need your love
E Am
I m still loving you,



Загрузка...